Escucha el disco de mi banda Hydrobius, Dentro del laberinto

Cosas Olvidadas - Acordes para guitarra





IMPORTANTE!!!! Cejilla en el primer traste

Intro:

E---9------8-------6-----4
B---11----9-------8-----6
G---10----x-------8-----5
D---x-----x--------x-----x
A---x-----x--------x----x
E---x-----x--------x-----x

E----8-----6-------4-----3-------------------4---3
B----9----8-------6-----5--------------------6---5
G----x----8-------6-----5-----5—3---3----6---5
D----x-----x------x-----x--------------------x---x
A----x-----x------x----x---------------------x--x
E----x-----x------x-----x--------------------x---x

 Mim

1---3---4/8---3---4/6---4---3----4---1
 ---------------------------------------------2---1       


Sol6: 3-3-2-x-x-x
Re9: x-4-3-4-0-4

                     Lam
Después de mucho, mucho tiempo
       Si7                         mim
recién ahora vuelvo a hablarte
            Lam                Fa
que sensación al escucharte
Si7                      mim
parece que fuera ayer.
 
                                    Lam
ya vez estoy mucho mas viejo
si7                               mim
y vos igual a aquellos días
Lam                        Sol#6  mim
que tanto, tanto me querías
              lam         Si7      mim
ya nada queda , Todo se fue..
 
Sol#     Re9      Fa#m
Son cosas olvidadas
Si7              mi
Esos viejos amores
Sol#/Re9            Fa#m
Y al evocar tiempos mejores
Si7                      Mi
Se van nublando nuestras miradas.
 
Sol#  Re9   Fa#m
Son cosas olvidadas
Si7                        Mi
Que vuelven desteñidas
La lam                   Mi   Sol#m   
Y en la soledad de nuestras vidas
 Fa#m             Si7           Mim
Abren heridas, al corazón.
 
                                 Lam
Hay en tu voz un dejo triste
Si7                    Mim
De penas y melancolía
Lam                         Fa
Y a su conjuro el alma mía
   Si7                         Mim
Se esfuerza por no llorar
 
                               Lam
Es que a los dos nos hizo daño
Si7                           Mim
Resucitar las horas muertas
Lam                  Sol#6
Y el corazón abrió sus puertas
              lam         Si7      mim
A la tristeza de recordar

www.facebook.com/yzardui
 

No hay comentarios:

Publicar un comentario